(tab) 3 dimes down

The place for discussing how to play the songs. Broken out by album. --

Moderators: Jonicont, mark lynn, Maluca3, olwiggum, Tequila Cowboy, BigTom, CooleyGirl

(tab) 3 dimes down

Postby danotranto@yahoo.com » Mon Nov 01, 2010 2:05 pm

Heres my meager attempt to tab the main riff of the song, ill try to get the slide down later
Image
danotranto@yahoo.com
 
Posts: 1
Joined: Mon Nov 01, 2010 12:33 pm

Re: (tab) 3 dimes down

Postby videofreak » Fri Feb 21, 2014 4:42 am

Video freak tab 3 dimes down


Tuning : E A D G B E Time Signature: 4/4

| | | | | | | |
|------------------------------------|--------------------------------|
|------------------------------------|--------------------------------|
|7-7---7---7-----------------------|--------------------------------|
|7h9---9---7---------------7------|--------------------------------|
|--------------9---7---7h9---9-7-|7-7-9-7---7-7-9-7---------------|
|--------------------10------------|5-5-5-5---5-5-5-5---------------|

| | | | | | | |
|-----------------------------------|--------------------------------|
|-----------------------------------|--------------------------------|
|-----------------------------------|7-7---7---7-7-7-7---------------|
|-----------------------------------|7h9---9---7-7-9-7-------7-------|
|7-7-9-7---7-7-9-7---------------|--------------------7h9---9-7---|
|5-5-5-5---5-5-5-5---------------|--------------------------------|

| | | | | | | |
|-----------------------------------|--------------------------------|
|-----------------------------------|--------------------------------|
|-----------------------------------|--------------------------------|
|-----------------------------------|--------------------------------|
|--7-7-9-7---7-7-9-7-------------|7-7-9-7---7-7-9-7---------------|
|--5-5-5-5---5-5-5-5-------------|5-5-5-5---5-5-5-5---------------|
videofreak
 
Posts: 1
Joined: Thu Feb 20, 2014 12:03 pm


Return to Drive-By Truckers Chords and Tabs

Who is online

Users browsing this forum: No registered users and 1 guest